уже история размышления сказать подкасты
Вcе песни
C
F
M
В
К
М
Н
О
П
С
Т
Я


К сведению
Сссылки на предстваленные в рубрике песни ведут на различные сетевые ресурсы. Расположенные по ним файлы не контролируются администрацией сайта Апрель.

Мы предоставляем информацию о местонахождении аудиофайла и просим сообщать, если представленные ссылки окажутся нерабочими
Асфальт (new version)
  Аккорды
Intro:
1||------0---0-1---0---------------0---0-1---5-----------|
2||-1--3---3-----3---3-1---1-1-3---3-----3---6-5-3-----|
3||------------------------2----------------------------5-2-|
1||-----0---0-1---0-------------|
2||-1-3---3-----3--3-1---1--3-|
3||----------------------2----3-|
4||--2--2--2--2--2--2--2--2--|
5||--0--0--0--0--0--0--0--0--|
1|---5----------------5------|
2|---6----------------6------|
3|---7----------------7------|
4|---7----------------7------|
5|---5----------------5------|

1|---5----------------5------|
2|---6----------------6------|
3|---7----------------7------|
4|---7----------------7------|
5|---5----------------5------|

Verse:

Dm
1|---5----------------5------|
2|---6----------------6------|
3|---7----------------7------|
4|---7----------------7------|
5|---5----------------5------|
В газетаx писали что ты уезжаешь

B F
1|-------3------3--5----5-----|
2|-----6--------6-------6-----|
3|---3------------------------|
Что рейс не отменят что рейс не отложат

Какие то люди тебя окружают
А ближе чем были уже невозможно
Gm
В красивых журналах считаю пунктиры
Cm
А я до квартиры вечернее сальто
G#
И кривятся губы и кофе противен…
C# A
1|------4--------0----5--9----5-----|
2|-2-----------------------------5--|
И новое утро, и новое «Нет тебя…»

Chorus:
B
2|----------3----------|
3|--3------------------|
4|-----3---------------|
Я

A
2|----------2----------|
3|--2------------------|
4|-----2---------------|
по

Dm B
1|-1-5-3-1-0-1-0-----|
2|------------------3-1-|
асфальту шагаю,

Gm
2|----------3----------|
3|--3--0---------------|
С тем,
A
2|----------2----------|
3|--2------------------|
4|-----2---------------|
кого
Dm B
1|-1-5-3-1-0-1-0-----|
2|------------------3-1-|
сберечь не смогу
Gm
2|----------3----------|
3|--3--0---------------|
До
A
2|----------2----------|
3|--2------------------|
4|-----2---------------|
Оста-
Dm B
1|-1-5-3-1-0-1-0-----|
2|------------------3-1-|
новки трамвая,


Gm A Dm
1|-----------1------------1--0----0-------------------|
2|--3-----3---------------2----------------3-----1-3--|
3|-----3---------------------2-------------2----------|
звенящего на бегу…

Dm
В газетах писали, что ты идиотка,
B F
Во всем виновата проклятая водка,
Dm
Ругаешься матом, и песен не пишешь,
B F
Тебя окружают не люди, а мыши.
Gm
В красивых журналах считаю пунктиры,
Cm
Такое не выдумать даже нарочно,
G#
А я каждый вечер ползу до квартиры,
C# A
И ближе, чем были, уже невозможно…

Chorus.

Solo:

Gm Dm B C
1|--------------0-1-----------0-1--------1-3-3/12-----------------13--|
2|------------3------------3---------1-------------------------10------|
3|--0-2-0-3--------2-3-2---------3----3-------------------12----------|
Gm
1|------12---12----------------10----------------------10---------|
2|-10-------------------10----8-------8------10------8------8------|
3|----12---12---12--10----10------------10------10------------10--|
Dm
1|------------------------10-----------------------10---------|
2|--8--------10--------8--------8------10------8------8------|
3|-----10----------10--------------10------10------------10--|
B C
1|------------------------10----------------------10-------12-13-15-|
2|--8--------10--------8--------8------10------8------8-------------|
3|-----10----------10--------------10------10-----------10----------|
Chorus.
Coda:
1||------0---0-1---5-1-0-----------0---0-1---5-1-0-----
2||-1--3---3-----3-------3-1--1--3---3-----3-------3-1-
  аккорды к песне подобраны: InFi






Фото «навскидку»
09.09.2004



aprelpp.ru © 2006
0.229