уже история размышления сказать подкасты
Вcе песни
C
F
M
В
К
М
Н
О
П
С
Т
Я


К сведению
Сссылки на предстваленные в рубрике песни ведут на различные сетевые ресурсы. Расположенные по ним файлы не контролируются администрацией сайта Апрель.

Мы предоставляем информацию о местонахождении аудиофайла и просим сообщать, если представленные ссылки окажутся нерабочими
Розы
  Аккорды
Am
вступление
E
Ты дарила мне розы,
Am
Розы пахли полынью,
E
Знала все мои песни,
Am
Шевелила губами,
A7
Исчезала мгновенно,
Dm
Не сидела в засаде,
Am
Никогда не дышала
E Am
Тихонько в трубу.
  аккорды к песне подобраны: автор неизвестен


C#(IV)
Ты дарила мне розы
F#m(II)
Розы пахли полынью
C#(IV)
Знала все мои песни
F#m(II)
Шевелила губами
F#(II)
Исчезала мгновенно
Hm(II)
Не сидела в засаде
F#(II)
Никогда не дышала
C#(IV) F#(II)
Тихонько в трубу
Соло в самом конце песни после 5-го куплета.
E|--------------------------------------------------------
B|--------------------------------------------------------
G|-4h2-4h2--4--2h4-4---4-4--2h4-2h4-2---2/5-~5~-5/2--4--2-
D|-------------------------------------------^------------
A|-----------------------тут нужно чуть-чуть | потянуть---
E|--------------------------------------------------------
Тут ирается 8 раз - слайд с 4 на 6 лад и обратно.
Если не охото так скользить, можно заменить 4/6/4 на 4h6p4
E|----------------------------------------------------------
B|----------------------------------------------------------
G|--2--2----4----4/6/4----4/6/4----4/6/4---4/6/4--...(8 раз)
D|----------------------------------------------------------
A|----------------------------------------------------------
E|----------------------------------------------------------
А вот в следующеё строчке я не очень уверен.
Они играются полными бэндами, каждая из нот долго тянется.
В конце идут два аккорда лада у 12-13 на первых двух струнах.
E|?--------------------------------------------------12~~~12
B|?---------------------------------------13~~~13-----------
G|?--6-6-----8-8-----9--9-------11--11----------------------
D|?---------------------------------------------------------
A|?---------------------------------------------------------
E|?---------------------------------------------------------
А дальше все нормально.
E|--17--17--16--17---14------13--13--14---16---16---14----
B|--------------------------------------------------------
G|--------------------------------------------------------
D|--------------------------------------------------------
A|--------------------------------------------------------
E|--------------------------------------------------------
E|---12----9------------------------------
B|-----------------12----10----------10---
G|-----------------------------11---------
D|----------------------------------------
A|----------------------------------------
E|----------------------------------------
  аккорды к песне подобраны: автор неизвестен






Фото «навскидку»
30.11.2015



aprelpp.ru © 2006
0.164