уже история размышления сказать подкасты
Вcе песни
C
F
M
В
К
М
Н
О
П
С
Т
Я


К сведению
Сссылки на предстваленные в рубрике песни ведут на различные сетевые ресурсы. Расположенные по ним файлы не контролируются администрацией сайта Апрель.

Мы предоставляем информацию о местонахождении аудиофайла и просим сообщать, если представленные ссылки окажутся нерабочими
Парфюмерная
  Аккорды

Intro: F#m-Hm-Gm-Cm-G#m-C#m-Am-A

3|-7----7----7----7----7----7----7----7----7---------------------
4|-7----7----7----7----7----7----7----7----7-----8-8-8-8-8-8-8-8-
5|-5----5----5----5----5----5----5----5----5-----8-8-8-8-8-8-8-8-
6|---------------------------------------------------6-6-6-6-6-6-6-6-

Уже лето не зима я без тебя не без ума я без тебя не беспредел

4|-------3-3-3-3-3-3-3-3------------------------
5|-------3-3-3-3-3-3-3-3------------------------
6|-------1-1-1-1-1-1-1-1------------------------

Ты же видишь сама

Пролетело-растащило, виноватых не ищи,
Так получилось – кто-то раньше, кто-то позже…

3|--8-8-8-8-8-8---8-8-------
4|--8-8-8-8-8-8---8-8---7---
5|--6-6-6-6-6-6—6-6----7---
6|-------------------------5---

Белые одежды надевай
Волосы по плечи расти,

4|--6-6-6-6-6-6-6-6--------8-
5|--6-6-6-6-6-6-6-6--------8-
6|--4-4-4-4-4-4-4-4--------6-

Знаешь, не поможет даже Yves Rocher
Знаешь, не поможет даже Calvin Klein,

4|----4-4-2---2----9---9-7---9--
5|----4-----4-------9-------9----
6|----2-------------7------------

Уезжай… Уезжай…

Уже солнце полным ходом прогревает мосты,
И кто-то плавит меня, но, безусловно, не ты.
Пролетело, растащило, виноватых не ищи,
Так получилось, кто-то дальше, кто-то ближе.
Белые одежды надевай,
И волосы по плечи расти,
Знаешь, не поможет даже Yves Rocher,
Знаешь, не поможет даже Calvin Klein,
Не скучай, не скучай…

А я тебе оставлю пару незаметных вещей,
Чтоб никто не догадался, что живешь одна.
Будет день, найдется кто-то, будет ночь, найдешь кого-то,
Успокойся, это просто Луна.
Белые одежды надевай,
И волосы по плечи расти,
А знаешь, не поможет даже Yves Rocher,
Знаешь, не поможет даже Calvin Klein.
Забывай, забывай…
Solo:
3|-9-10-7-9-10-9-7-----------9-10-7-9-10-9-7---/14-14-12-14---15-------
4|--------------------8-10-8-7-------------------8------------------13---13-12-
3|-14-------15------14---
4|----12-13---13-12---12-
  аккорды к песне подобраны: InFi


Dm
уже лето не зима я без тебя не без ума
Bb F
я без тебя не без предела ты же видишь сама
Dm
пролетело растащило виноватых не ищи
B b F
так получилось кто-то раньше кто-то позже

Eb Am
белые одежды надевай
Eb Am
волосы по плечи расти
G# A#m
знаешь не поможет даже Yves Rocher
G# A#m
знаешь не поможет даже Calvin Klein
F# Bm
уезжай уезжай
  аккорды к песне подобраны: Официальный вариант


  аккорды к песне подобраны: Из сборника "30 песен Ночных Снайперов"


  Официальные альбомы




Фото «навскидку»
11.03.2001



aprelpp.ru © 2006
0.166